Björn Hasselgren - Företagsmeddelande

Back To The 60´s 
 
 
 
är en musikorganisation som aktivt arbetar för att bevara
60-tals musiken i Sverige.

Första måndagen i månaden. 
 
Plats:
Birjer Jarl

Öppetider:
Första måndag varje månad kl 18.15 – 23.00
Entré 100 kr från 18:15
Livemusik från 19:30
 
Beställ gärna bord om du skall äta   
 
Back To The 60´s hemsida    

     Nästa spelning  kolla hemsidan


 Boka bord om du vill äta Buffé för 190:- i Restaurang Roslagen.Skicka mail med ditt namn, antal personer och ditt telefonnummer till restaurang@anedinhostel.se.


 
Bilder från tidigare Back To The 60´s evenemang (siffran på linjen visar vilken gång i ordningen som vi arrangerat dessa 60-tals kvällar från starten 7 november 2011)


5 oktober Guitar heroes              inga bilder  
-----------------------------------------------40---
7 sep Shanes                           inga bilder

-----------------------------------------------39----

1 juni Plommons & Sonner or Later   inga bilder
-----------------------------------------------38---

4 maj  Vinylbandet                    inga bilder 

------------------------------------------------37---

13 april Vinylbandet                   inga bilder 

------------------------------------------------ 36---



2 mars 2015





Doktor Krall & Lelle Forsell
och Janne Önnerud



   Janne Önnerud dålig bild men desto bättre kväll


------------------------------------------------35----



2 februari 2015

New Generation & Lennart Grahn









------------------------------------------------- 34 ----

12 januari 2015 BlåBlus         inga bilder
-------------------------------------------------- 33 ------



1 december 2014


The Hounds 

originaluppsättningen



och 






Doktor Krall






















----------------------------------------------32-----








The Beatus


3 nov 2014





-------------------------------------------------31----






Brian Marston Band

Ingmar Wallén

6 okt 2014


---------------------------------------------30----

---------------------------------------------29 inga bilder 





2 juni 2014 


BlåBlus






------------------------------------------- 28 ---------------



5 maj 2014


Plommons







------------------------------------------- 27 --------------  



7 mars 2014

Vinylbandet




------------------------------------------------------------ 26 ----------------------------





3 mars 2014

Little Gerhard och Doktor Krall








---------------------------------------------------------------- 25 ----------------------------------



3 februari 2014


The Hounds







----------------------------------------------------------------  24  ---------------
 
New Generation och Lennart Grahn " När popen kom till Sverige " 13 jan  (23 ggr)
 
Från den 2 december 2013 ned Doktor Krall inga bilder tyvärr (22 gången)
 

 
4 november 2013
 
The Beatus
Robert Wells kompband
 
 
 
 
 
 
----------------------------------------------------------------- 21 --------------
 

7 oktober 2013
 
Raggarmusik
"Moonshine Cruisers"
Doktor Krall &
Little Gerhard 
 
 
 

-------------------------------------------------------------------- 20 ----------------
 
2 sep 2013
New Generation m. 
Lennart Grahn
 
När popen kom till Sverige
 
 
 
 

 
 
-----------------------------------------------------------------------19 ----------------


3 juni 2013
 
 
Plommons och
Josef
 
 
 

 
------------------------------------------------------------------------- 18 ----------
 

 
 
6 maj 2013
 
Shanes
 
 
 
 

 
 
--------------------------------------------------------- 17 ---------


 
1 april 2013
 
BlåBlus
 
 
 
 

 
 
 
--------------------------------------------------------------------------- 16 ------------------------ 
 
 
4 mars 2013
 
Först inlädde
Doktor Krall
 
 
sedan i andra sätt
Krall&Bert  som består av
 
 
 
Bosse Grönvall  Krall      Bert    Teresse Myrhed
 
 
 
 
sedan i tredje sätt
 
sjöng Lelle Forsell
 
flera gooa Elvislåtar
 
 
 
 
 
--------------------------------------------------------------------------  15 ---------------------------------
 
Ingen bild från 4 februari Vinylbandet som var den 14 spelningen
 

 
 
7 januari 2013
 
 
The New Generation
 
 
 
 

 
------------------------------------------------------------------------------ 13 ------------------------------
 

 
 
3 december 2012
 
The Husbends med 
Lasse Lindbom
 
 
 
 
 
 
------------------------------------------------------------------------------12 -------------------------
 

5 november 2012
 
 
 
 
BandAge
 
som förband till
 

 
 
 
 
 
 
 
The Shamrocks
 
 
 

 
 

---------------------------------------------------------------------------- 11 -------------------
 

1 oktober 2012
 
Doktor Krall med Elvis-kväll
 
 
 
foto Anders Henrikson
 
  med flera gäst artister,
              här med Lelle Forsell     
----------------------------------------------------------------------------- 10 ------------------
 

 
3 september 2012
 
New Generation med 
Lennart Grahn, 60´s allsång
 
 

 
 
 
 
Carina Jaarnek 
ville också sjunga
 
 
 
 
 
 
 


 
-------------------------------------------------------------------------------- 9 -----------------
 
 
 
4 juni 2012
 
 
Doktor Krall och
 
 
 
 

 
 
          Siw Malmqvist
----------------------------------------------------------------------------- 8 --------------
 
 
7 maj 2012
 
Delar av Doktor Krall
 
 
 
 
som förband till
 
 
 
 
 
Plommons
 
publiksuccé 168 pers
 
 
 
 
 
 
 
 
 
-------------------------------------------------------------------------- 7 ------------------
 
 
 
 
 
 
2 april 2012
 
 
 
 
 
 
 
Cheers med
Rockprinsen Leif Carlsson    Körtjejen Gittan
 
---------------------------------------------------------------------- 6 -------------------
 
 
 
 
 
 
 
 
 
5 mars 2012
 
Publiksuccé, minst 160 pers
 
 
Blåblus med Mads Clausen
------------------------------------------------------- 5 ------------------------
 
 
 
 
 
 
 
 
 
6 februari 2012
 
 
 
 
Janne Önnerud och New Generation
--------------------------------------------------------------------- 4 ---------------------------------
 
 
 
 
 
 
2 januari 2012
 
 
 
 
 
 
 
Lennart Grahn kompad av New Generation
 
---------------------------------------------------------------- 3 ------------------------------
 
 
 
 
 
5 december 2011
 
 
 
 
 
 
 
Doktor Krall och Little Gerhard 5 december 
 
-------------------------------------------------------------------- 2 ---------------------------
 
 
 
 
 
 
 
Preniären 7 november 2011
 
 
 
 
 

 
Tommy Blom kompad av New Generation
                                                                   
 
Site Builder drivs av  Vistaprint